0
SECTION
2
HEADER
9
$INSUNITS
70
4
0
ENDSEC
0
SECTION
2
TABLES
0
TABLE
2
LTYPE
0
LTYPE
72
65
70
64
2
CONTINUOUS
3
______
73
0
40
0
0
ENDTAB
0
TABLE
2
LAYER
0
ENDTAB
0
ENDSEC
0
SECTION
2
ENTITIES
0
LINE
8
0
10
91.0819822
20
-108.7400178
11
91.0800178
21
-53.4900046
0
LINE
8
0
10
91.5800046
20
-52.9899868
11
128.5800131
21
-52.9890132
0
LINE
8
0
10
129.08
20
-52.4890132
11
129.08
21
-48.74
0
LINE
8
0
10
129.58
20
-48.24
11
147.58
21
-48.24
0
LINE
8
0
10
148.08
20
-47.74
11
148.08
21
-46.488
0
LINE
8
0
10
148.58
20
-45.988
11
165.582
21
-45.988
0
LINE
8
0
10
166.082
20
-46.488
11
166.082
21
-47.74
0
LINE
8
0
10
166.582
20
-48.24
11
184.582
21
-48.24
0
LINE
8
0
10
185.082
20
-48.74
11
185.082
21
-50.238
0
LINE
8
0
10
185.582
20
-50.738
11
203.5822219
21
-50.738
0
LINE
8
0
10
204.0822219
20
-51.237778
11
204.0827781
21
-52.490222
0
LINE
8
0
10
224.518
20
-113.996596
11
210.9735319
21
-137.4583675
0
LINE
8
0
10
210.2905097
20
-137.6413967
11
195.1236421
21
-128.8848015
0
LINE
8
0
10
194.9382671
20
-128.8220082
11
157.7729681
21
-123.977759
0
LINE
8
0
10
157.4335103
20
-123.7764307
11
146.9897756
21
-109.4455223
0
LINE
8
0
10
146.5856928
20
-109.24
11
91.5819822
21
-109.24
0
LINE
8
0
10
204.5827781
20
-52.99
11
224.333
21
-52.99
0
LINE
8
0
10
224.833
20
-53.49
11
224.833
21
-113.3170254
0
LINE
8
0
10
224.7660127
20
-113.5670254
11
224.518
21
-113.996596
0
ARC
8
0
10
91.5800178
20
-53.4899868
40
0.5
50
90.0015069
51
180.0020398
0
ARC
8
0
10
128.58
20
-52.4890132
40
0.5
50
270.0015069
51
0
0
ARC
8
0
10
129.58
20
-48.74
40
0.5
50
90
51
180
0
ARC
8
0
10
147.58
20
-47.74
40
0.5
50
270
51
0
0
ARC
8
0
10
148.58
20
-46.488
40
0.5
50
90
51
180
0
ARC
8
0
10
165.582
20
-46.488
40
0.5
50
0
51
90
0
ARC
8
0
10
166.582
20
-47.74
40
0.5
50
180
51
270
0
ARC
8
0
10
184.582
20
-48.74
40
0.5
50
0
51
90
0
ARC
8
0
10
185.582
20
-50.238
40
0.5
50
180
51
270
0
ARC
8
0
10
203.5822219
20
-51.238
40
0.5
50
0.0254393
51
90
0
ARC
8
0
10
204.5827781
20
-52.49
40
0.5
50
180.0254393
51
270
0
ARC
8
0
10
224.333
20
-53.49
40
0.5
50
0
51
90
0
ARC
8
0
10
224.333
20
-113.3170254
40
0.5
50
329.9999999
51
0
0
ARC
8
0
10
210.5405097
20
-137.208384
40
0.5
50
239.9999999
51
330.0021845
0
ARC
8
0
10
194.8736421
20
-129.3178142
40
0.5
50
59.9999999
51
82.5737449
0
ARC
8
0
10
157.8375931
20
-123.481953
40
0.5
50
216.0829165
51
262.5737449
0
ARC
8
0
10
146.5856928
20
-109.74
40
0.5
50
36.0829165
51
90
0
ARC
8
0
10
91.5819822
20
-108.74
40
0.5
50
180.0020397
51
270
0
CIRCLE
8
0
10
109.5
20
-71.5
40
2.15
0
CIRCLE
8
0
10
109.5
20
-90.5
40
2.15
0
CIRCLE
8
0
10
185.468
20
-67.986
40
2.15
0
CIRCLE
8
0
10
152.657
20
-107.74
40
2.15
0
CIRCLE
8
0
10
199.2410516
20
-115.3236576
40
2.15
0
CIRCLE
8
0
10
207.762
20
-100.476
40
1.1
0
CIRCLE
8
0
10
222.194
20
-108.995
40
1.1
0
ENDSEC
0
EOF